0
SECTION
2
HEADER
9
$ACADVER
1
AC1006
9
$INSBASE
10
0.0
20
0.0
30
0.0
9
$EXTMIN
10
          0.571
20
         -0.202
9
$EXTMAX
10
        150.887
20
         99.367
0
ENDSEC
0
SECTION
2
TABLES
0
TABLE
2
LAYER
70
4
0
LAYER
2
0
62
7
70
0
6
CONTINUOUS
0
LAYER
2
grens
62
1
70
0
6
CONTINUOUS
0
LAYER
2
spoor
62
2
70
0
6
CONTINUOUS
0
LAYER
2
weg
62
3
70
0
6
CONTINUOUS
0
ENDTAB
0
ENDSEC
0
SECTION
2
ENTITIES
0
POLYLINE
66
1
70
0
8
grens
0
VERTEX
8
grens
10
          0.595
20
         52.545
0
VERTEX
8
grens
10
          3.619
20
         55.130
0
VERTEX
8
grens
10
          6.619
20
         57.057
0
VERTEX
8
grens
10
          9.521
20
         57.715
0
VERTEX
8
grens
10
         12.569
20
         57.618
0
VERTEX
8
grens
10
         16.081
20
         58.422
0
VERTEX
8
grens
10
         17.739
20
         58.691
0
VERTEX
8
grens
10
         21.421
20
         57.081
0
VERTEX
8
grens
10
         24.591
20
         54.935
0
VERTEX
8
grens
10
         29.688
20
         50.668
0
VERTEX
8
grens
10
         35.443
20
         45.376
0
VERTEX
8
grens
10
         37.370
20
         42.864
0
VERTEX
8
grens
10
         43.832
20
         40.499
0
VERTEX
8
grens
10
         47.661
20
         38.133
0
VERTEX
8
grens
10
         52.733
20
         36.255
0
VERTEX
8
grens
10
         57.025
20
         36.060
0
VERTEX
8
grens
10
         59.829
20
         34.670
0
VERTEX
8
grens
10
         64.536
20
         32.183
0
VERTEX
8
grens
10
         73.193
20
         25.648
0
VERTEX
8
grens
10
         73.998
20
         21.331
0
VERTEX
8
grens
10
         77.948
20
         18.576
0
VERTEX
8
grens
10
         80.631
20
         16.576
0
VERTEX
8
grens
10
         89.117
20
         13.991
0
VERTEX
8
grens
10
         97.384
20
         10.260
0
VERTEX
8
grens
10
        101.822
20
          7.626
0
SEQEND
0
POLYLINE
66
1
70
0
8
grens
0
VERTEX
8
grens
10
        150.887
20
         78.151
0
VERTEX
8
grens
10
        143.547
20
         67.031
0
VERTEX
8
grens
10
        139.206
20
         58.203
0
VERTEX
8
grens
10
        136.817
20
         56.667
0
VERTEX
8
grens
10
        122.307
20
         31.720
0
VERTEX
8
grens
10
        122.575
20
         30.061
0
VERTEX
8
grens
10
        119.356
20
         22.916
0
VERTEX
8
grens
10
        112.455
20
         17.771
0
VERTEX
8
grens
10
        110.723
20
         15.722
0
VERTEX
8
grens
10
        112.528
20
         11.918
0
VERTEX
8
grens
10
        112.430
20
          8.870
0
SEQEND
0
POLYLINE
66
1
70
0
8
grens
0
VERTEX
8
grens
10
        142.620
20
          0.505
0
VERTEX
8
grens
10
        139.450
20
          1.237
0
VERTEX
8
grens
10
        135.500
20
          3.627
0
VERTEX
8
grens
10
        131.939
20
          5.358
0
VERTEX
8
grens
10
        130.037
20
          5.602
0
VERTEX
8
grens
10
        125.209
20
          7.724
0
VERTEX
8
grens
10
        118.503
20
          9.553
0
VERTEX
8
grens
10
        115.332
20
          8.894
0
VERTEX
8
grens
10
        112.430
20
          8.870
0
SEQEND
0
POLYLINE
66
1
70
0
8
grens
0
VERTEX
8
grens
10
        112.430
20
          8.870
0
VERTEX
8
grens
10
        110.162
20
          7.968
0
VERTEX
8
grens
10
        107.895
20
          7.041
0
VERTEX
8
grens
10
        106.261
20
          6.773
0
VERTEX
8
grens
10
        104.383
20
          6.504
0
VERTEX
8
grens
10
        103.115
20
          6.870
0
VERTEX
8
grens
10
        101.822
20
          7.626
0
SEQEND
0
POLYLINE
66
1
70
0
8
grens
0
VERTEX
8
grens
10
        101.822
20
          7.626
0
VERTEX
8
grens
10
         98.067
20
          4.529
0
VERTEX
8
grens
10
         94.921
20
          4.627
0
VERTEX
8
grens
10
         92.531
20
          3.456
0
VERTEX
8
grens
10
         89.507
20
          1.773
0
VERTEX
8
grens
10
         85.971
20
          0.481
0
SEQEND
0
POLYLINE
66
1
70
0
8
grens
0
VERTEX
8
grens
10
        150.887
20
         78.151
0
VERTEX
8
grens
10
        143.937
20
         76.176
0
VERTEX
8
grens
10
        135.110
20
         74.810
0
VERTEX
8
grens
10
        129.940
20
         74.761
0
VERTEX
8
grens
10
        121.185
20
         77.858
0
VERTEX
8
grens
10
        111.528
20
         80.833
0
VERTEX
8
grens
10
         95.677
20
         87.027
0
VERTEX
8
grens
10
         83.118
20
         90.856
0
VERTEX
8
grens
10
         71.315
20
         93.782
0
VERTEX
8
grens
10
         62.707
20
         96.002
0
VERTEX
8
grens
10
         54.977
20
         97.440
0
VERTEX
8
grens
10
         50.685
20
         96.514
0
VERTEX
8
grens
10
         46.027
20
         95.319
0
VERTEX
8
grens
10
         42.003
20
         94.270
0
VERTEX
8
grens
10
         42.076
20
         99.367
0
SEQEND
0
POLYLINE
66
1
70
0
8
grens
0
VERTEX
8
grens
10
         42.076
20
         99.367
0
VERTEX
8
grens
10
         31.420
20
         90.612
0
VERTEX
8
grens
10
         24.567
20
         80.882
0
VERTEX
8
grens
10
         25.543
20
         73.639
0
VERTEX
8
grens
10
         17.519
20
         65.421
0
VERTEX
8
grens
10
          9.228
20
         62.666
0
VERTEX
8
grens
10
          4.424
20
         62.129
0
VERTEX
8
grens
10
          2.449
20
         58.276
0
VERTEX
8
grens
10
          0.571
20
         54.960
0
VERTEX
8
grens
10
          0.595
20
         52.545
0
SEQEND
0
POLYLINE
66
1
70
0
8
grens
0
VERTEX
8
grens
10
          0.595
20
         52.545
0
VERTEX
8
grens
10
          3.571
20
         46.985
0
VERTEX
8
grens
10
          8.155
20
         43.474
0
VERTEX
8
grens
10
         17.617
20
         33.524
0
VERTEX
8
grens
10
         16.325
20
         23.843
0
VERTEX
8
grens
10
         16.422
20
         15.186
0
VERTEX
8
grens
10
         21.543
20
         10.406
0
VERTEX
8
grens
10
         32.834
20
          6.821
0
VERTEX
8
grens
10
         40.930
20
          6.285
0
VERTEX
8
grens
10
         55.367
20
          1.847
0
VERTEX
8
grens
10
         64.487
20
          1.042
0
VERTEX
8
grens
10
         69.121
20
          4.505
0
VERTEX
8
grens
10
         75.071
20
          4.700
0
VERTEX
8
grens
10
         79.777
20
          1.944
0
VERTEX
8
grens
10
         86.362
20
          1.237
0
VERTEX
8
grens
10
         85.971
20
          0.481
0
SEQEND
0
POLYLINE
66
1
70
0
8
grens
0
VERTEX
8
grens
10
         85.971
20
          0.481
0
VERTEX
8
grens
10
         94.946
20
          1.335
0
VERTEX
8
grens
10
        103.286
20
          1.408
0
VERTEX
8
grens
10
        113.503
20
          2.895
0
VERTEX
8
grens
10
        117.698
20
          1.042
0
VERTEX
8
grens
10
        125.672
20
          1.115
0
VERTEX
8
grens
10
        130.330
20
          1.164
0
VERTEX
8
grens
10
        135.158
20
          0.310
0
VERTEX
8
grens
10
        142.620
20
          0.505
0
SEQEND
0
POLYLINE
66
1
70
0
8
grens
0
VERTEX
8
grens
10
        142.620
20
          0.505
0
VERTEX
8
grens
10
        143.913
20
         19.722
0
VERTEX
8
grens
10
        140.840
20
         34.963
0
VERTEX
8
grens
10
        145.888
20
         47.473
0
VERTEX
8
grens
10
        147.571
20
         56.374
0
VERTEX
8
grens
10
        148.888
20
         62.373
0
VERTEX
8
grens
10
        149.839
20
         68.616
0
VERTEX
8
grens
10
        150.887
20
         78.151
0
SEQEND
0
POLYLINE
66
1
70
0
8
weg
0
VERTEX
8
weg
10
          5.204
20
         94.173
0
VERTEX
8
weg
10
         15.008
20
         87.783
0
VERTEX
8
weg
10
         21.909
20
         82.126
0
VERTEX
8
weg
10
         26.811
20
         71.372
0
VERTEX
8
weg
10
         34.005
20
         61.251
0
VERTEX
8
weg
10
         40.491
20
         45.547
0
VERTEX
8
weg
10
         44.539
20
         34.792
0
VERTEX
8
weg
10
         49.173
20
         26.062
0
VERTEX
8
weg
10
         60.976
20
         20.843
0
VERTEX
8
weg
10
         72.242
20
         20.307
0
VERTEX
8
weg
10
         85.337
20
         25.648
0
VERTEX
8
weg
10
         96.019
20
         30.061
0
VERTEX
8
weg
10
        106.334
20
         36.646
0
VERTEX
8
weg
10
        114.747
20
         40.547
0
VERTEX
8
weg
10
        126.623
20
         40.401
0
VERTEX
8
weg
10
        137.524
20
         37.963
0
VERTEX
8
weg
10
        147.181
20
         33.866
0
VERTEX
8
weg
10
        150.229
20
         31.476
0
VERTEX
8
weg
10
        150.253
20
         30.964
0
SEQEND
0
POLYLINE
66
1
70
0
8
spoor
0
VERTEX
8
spoor
10
         98.213
20
         97.611
0
VERTEX
8
spoor
10
         99.701
20
         88.588
0
VERTEX
8
spoor
10
         97.677
20
         77.517
0
VERTEX
8
spoor
10
         95.994
20
         67.592
0
VERTEX
8
spoor
10
         92.726
20
         55.862
0
VERTEX
8
spoor
10
         88.629
20
         47.424
0
VERTEX
8
spoor
10
         79.655
20
         36.402
0
VERTEX
8
spoor
10
         71.779
20
         27.159
0
VERTEX
8
spoor
10
         65.536
20
         20.502
0
VERTEX
8
spoor
10
         52.099
20
         12.357
0
VERTEX
8
spoor
10
         42.930
20
          7.553
0
VERTEX
8
spoor
10
         30.200
20
          3.505
0
VERTEX
8
spoor
10
         19.495
20
          0.847
0
VERTEX
8
spoor
10
         15.715
20
         -0.202
0
SEQEND
0
ENDSEC
0
EOF
